  0
SECTION
  2
HEADER
  9
$ACADVER
  1
AC1015
  9
$ACADMAINTVER
 70
     6
  9
$DWGCODEPAGE
  3
ANSI_1254
  9
$INSBASE
 10
0.0
 20
0.0
 30
0.0
  9
$EXTMIN
 10
0.0
 20
0.0
 30
0.0
  9
$EXTMAX
 10
279.4
 20
215.9
 30
0.0
  9
$LIMMIN
 10
0.0
 20
0.0
  9
$LIMMAX
 10
279.4
 20
215.9
  9
$ORTHOMODE
 70
     0
  9
$REGENMODE
 70
     1
  9
$FILLMODE
 70
     1
  9
$QTEXTMODE
 70
     0
  9
$MIRRTEXT
 70
     1
  9
$LTSCALE
 40
1.0
  9
$ATTMODE
 70
     1
  9
$TEXTSIZE
 40
3.5
  9
$TRACEWID
 40
1.0
  9
$TEXTSTYLE
  7
Standard
  9
$CLAYER
  8
0
  9
$CELTYPE
  6
ByLayer
  9
$CECOLOR
 62
   256
  9
$CELTSCALE
 40
1.0
  9
$DISPSILH
 70
     0
  9
$DIMSCALE
 40
1.0
  9
$DIMASZ
 40
3.5
  9
$DIMEXO
 40
1.0
  9
$DIMDLI
 40
3.75
  9
$DIMRND
 40
0.0
  9
$DIMDLE
 40
0.0
  9
$DIMEXE
 40
1.0
  9
$DIMTP
 40
0.0
  9
$DIMTM
 40
0.0
  9
$DIMTXT
 40
3.5
  9
$DIMCEN
 40
2.5
  9
$DIMTSZ
 40
0.0
  9
$DIMTOL
 70
     0
  9
$DIMLIM
 70
     0
  9
$DIMTIH
 70
     1
  9
$DIMTOH
 70
     1
  9
$DIMSE1
 70
     0
  9
$DIMSE2
 70
     0
  9
$DIMTAD
 70
     1
  9
$DIMZIN
 70
     0
  9
$DIMBLK
  1

  9
$DIMASO
 70
     1
  9
$DIMSHO
 70
     1
  9
$DIMPOST
  1

  9
$DIMAPOST
  1

  9
$DIMALT
 70
     0
  9
$DIMALTD
 70
     3
  9
$DIMALTF
 40
0.0393700787
  9
$DIMLFAC
 40
1.0
  9
$DIMTOFL
 70
     1
  9
$DIMTVP
 40
0.0
  9
$DIMTIX
 70
     0
  9
$DIMSOXD
 70
     0
  9
$DIMSAH
 70
     0
  9
$DIMBLK1
  1

  9
$DIMBLK2
  1

  9
$DIMSTYLE
  2
ISO-25
  9
$DIMCLRD
 70
     0
  9
$DIMCLRE
 70
     0
  9
$DIMCLRT
 70
     0
  9
$DIMTFAC
 40
1.0
  9
$DIMGAP
 40
1.524
  9
$DIMJUST
 70
     0
  9
$DIMSD1
 70
     0
  9
$DIMSD2
 70
     0
  9
$DIMTOLJ
 70
     0
  9
$DIMTZIN
 70
     0
  9
$DIMALTZ
 70
     0
  9
$DIMALTTZ
 70
     0
  9
$DIMUPT
 70
     0
  9
$DIMDEC
 70
     2
  9
$DIMTDEC
 70
     2
  9
$DIMALTU
 70
     2
  9
$DIMALTTD
 70
     3
  9
$DIMTXSTY
  7
Standard
  9
$DIMAUNIT
 70
     0
  9
$DIMADEC
 70
     2
  9
$DIMALTRND
 40
0.0
  9
$DIMAZIN
 70
     0
  9
$DIMDSEP
 70
    44
  9
$DIMATFIT
 70
     3
  9
$DIMFRAC
 70
     0
  9
$DIMLDRBLK
  1

  9
$DIMLUNIT
 70
     2
  9
$DIMLWD
 70
    -2
  9
$DIMLWE
 70
    -2
  9
$DIMTMOVE
 70
     0
  9
$LUNITS
 70
     2
  9
$LUPREC
 70
     2
  9
$SKETCHINC
 40
1.0
  9
$FILLETRAD
 40
10.0
  9
$AUNITS
 70
     0
  9
$AUPREC
 70
     2
  9
$MENU
  1
.
  9
$ELEVATION
 40
0.0
  9
$PELEVATION
 40
0.0
  9
$THICKNESS
 40
0.0
  9
$LIMCHECK
 70
     0
  9
$CHAMFERA
 40
0.0
  9
$CHAMFERB
 40
0.0
  9
$CHAMFERC
 40
0.0
  9
$CHAMFERD
 40
0.0
  9
$SKPOLY
 70
     0
  9
$TDCREATE
 40
2458985.665934977
  9
$TDUCREATE
 40
2458985.540934977
  9
$TDUPDATE
 40
2458985.665935301
  9
$TDUUPDATE
 40
2458985.540935301
  9
$TDINDWG
 40
0.0000000116
  9
$TDUSRTIMER
 40
0.0000000116
  9
$USRTIMER
 70
     1
  9
$ANGBASE
 50
0.0
  9
$ANGDIR
 70
     0
  9
$PDMODE
 70
     0
  9
$PDSIZE
 40
-1.0
  9
$PLINEWID
 40
0.0
  9
$SPLFRAME
 70
     0
  9
$SPLINETYPE
 70
     6
  9
$SPLINESEGS
 70
     8
  9
$HANDSEED
  5
D2
  9
$SURFTAB1
 70
     6
  9
$SURFTAB2
 70
     6
  9
$SURFTYPE
 70
     6
  9
$SURFU
 70
     6
  9
$SURFV
 70
     6
  9
$UCSBASE
  2

  9
$UCSNAME
  2

  9
$UCSORG
 10
0.0
 20
0.0
 30
0.0
  9
$UCSXDIR
 10
1.0
 20
0.0
 30
0.0
  9
$UCSYDIR
 10
0.0
 20
1.0
 30
0.0
  9
$UCSORTHOREF
  2

  9
$UCSORTHOVIEW
 70
     0
  9
$UCSORGTOP
 10
0.0
 20
0.0
 30
0.0
  9
$UCSORGBOTTOM
 10
0.0
 20
0.0
 30
0.0
  9
$UCSORGLEFT
 10
0.0
 20
0.0
 30
0.0
  9
$UCSORGRIGHT
 10
0.0
 20
0.0
 30
0.0
  9
$UCSORGFRONT
 10
0.0
 20
0.0
 30
0.0
  9
$UCSORGBACK
 10
0.0
 20
0.0
 30
0.0
  9
$PUCSBASE
  2

  9
$PUCSNAME
  2

  9
$PUCSORG
 10
0.0
 20
0.0
 30
0.0
  9
$PUCSXDIR
 10
1.0
 20
0.0
 30
0.0
  9
$PUCSYDIR
 10
0.0
 20
1.0
 30
0.0
  9
$PUCSORTHOREF
  2

  9
$PUCSORTHOVIEW
 70
     0
  9
$PUCSORGTOP
 10
0.0
 20
0.0
 30
0.0
  9
$PUCSORGBOTTOM
 10
0.0
 20
0.0
 30
0.0
  9
$PUCSORGLEFT
 10
0.0
 20
0.0
 30
0.0
  9
$PUCSORGRIGHT
 10
0.0
 20
0.0
 30
0.0
  9
$PUCSORGFRONT
 10
0.0
 20
0.0
 30
0.0
  9
$PUCSORGBACK
 10
0.0
 20
0.0
 30
0.0
  9
$USERI1
 70
     0
  9
$USERI2
 70
     0
  9
$USERI3
 70
     0
  9
$USERI4
 70
     0
  9
$USERI5
 70
     0
  9
$USERR1
 40
0.0
  9
$USERR2
 40
0.0
  9
$USERR3
 40
0.0
  9
$USERR4
 40
0.0
  9
$USERR5
 40
0.0
  9
$WORLDVIEW
 70
     1
  9
$SHADEDGE
 70
     3
  9
$SHADEDIF
 70
    70
  9
$TILEMODE
 70
     1
  9
$MAXACTVP
 70
    64
  9
$PINSBASE
 10
0.0
 20
0.0
 30
0.0
  9
$PLIMCHECK
 70
     0
  9
$PEXTMIN
 10
1.0000000000E+20
 20
1.0000000000E+20
 30
1.0000000000E+20
  9
$PEXTMAX
 10
-1.0000000000E+20
 20
-1.0000000000E+20
 30
-1.0000000000E+20
  9
$PLIMMIN
 10
0.0
 20
0.0
  9
$PLIMMAX
 10
420.0
 20
297.0
  9
$UNITMODE
 70
     0
  9
$VISRETAIN
 70
     1
  9
$PLINEGEN
 70
     0
  9
$PSLTSCALE
 70
     1
  9
$TREEDEPTH
 70
  3020
  9
$CMLSTYLE
  2
Standard
  9
$CMLJUST
 70
     0
  9
$CMLSCALE
 40
20.0
  9
$PROXYGRAPHICS
 70
     1
  9
$MEASUREMENT
 70
     1
  9
$CELWEIGHT
370
    -1
  9
$ENDCAPS
280
     0
  9
$JOINSTYLE
280
     0
  9
$LWDISPLAY
290
     1
  9
$INSUNITS
 70
     4
  9
$HYPERLINKBASE
  1

  9
$STYLESHEET
  1

  9
$XEDIT
290
     1
  9
$CEPSNTYPE
380
     0
  9
$PSTYLEMODE
290
     1
  9
$FINGERPRINTGUID
  2
{be2d2f8c-1921-40e5-b485-f589c0765ef0}
  9
$VERSIONGUID
  2
{FAEB1C32-E019-11D5-929B-00C0DF256EC4}
  9
$EXTNAMES
290
     1
  9
$PSVPSCALE
 40
0.0
  9
$OLESTARTUP
290
     0
  0
ENDSEC
  0
SECTION
  2
CLASSES
  0
CLASS
  1
ACDBDICTIONARYWDFLT
  2
AcDbDictionaryWithDefault
  3
ObjectDBX Classes
 90
        0
280
     0
281
     0
  0
CLASS
  1
VISUALSTYLE
  2
AcDbVisualStyle
  3
ObjectDBX Classes
 90
     4095
280
     0
281
     0
  0
CLASS
  1
MATERIAL
  2
AcDbMaterial
  3
ObjectDBX Classes
 90
     1153
280
     0
281
     0
  0
CLASS
  1
SCALE
  2
AcDbScale
  3
ObjectDBX Classes
 90
     1153
280
     0
281
     0
  0
CLASS
  1
TABLESTYLE
  2
AcDbTableStyle
  3
ObjectDBX Classes
 90
     4095
280
     0
281
     0
  0
CLASS
  1
MLEADERSTYLE
  2
AcDbMLeaderStyle
  3
ACDB_MLEADERSTYLE_CLASS
 90
     4095
280
     0
281
     0
  0
CLASS
  1
SUN
  2
AcDbSun
  3
SCENEOE
 90
     1153
280
     0
281
     0
  0
CLASS
  1
ACDBPLACEHOLDER
  2
AcDbPlaceHolder
  3
ObjectDBX Classes
 90
        0
280
     0
281
     0
  0
CLASS
  1
LAYOUT
  2
AcDbLayout
  3
ObjectDBX Classes
 90
        0
280
     0
281
     0
  0
ENDSEC
  0
SECTION
  2
TABLES
  0
TABLE
  2
VPORT
  5
8
330
0
100
AcDbSymbolTable
 70
     1
  0
VPORT
  5
29
330
8
100
AcDbSymbolTableRecord
100
AcDbViewportTableRecord
  2
*Active
 70
     0
 10
0.0
 20
0.0
 11
1.0
 21
1.0
 12
139.7
 22
107.95
 13
0.0
 23
0.0
 14
10.0
 24
10.0
 15
10.0
 25
10.0
 16
0.0
 26
0.0
 36
1.0
 17
0.0
 27
0.0
 37
0.0
 40
215.9
 41
1.2941176471
 42
50.0
 43
0.0
 44
0.0
 50
0.0
 51
0.0
 71
     0
 72
  2000
 73
     1
 74
     3
 75
     0
 76
     0
 77
     0
 78
     0
281
     0
 65
     1
110
0.0
120
0.0
130
0.0
111
1.0
121
0.0
131
0.0
112
0.0
122
1.0
132
0.0
 79
     0
146
0.0
  0
ENDTAB
  0
TABLE
  2
LTYPE
  5
5
330
0
100
AcDbSymbolTable
 70
     6
  0
LTYPE
  5
14
330
5
100
AcDbSymbolTableRecord
100
AcDbLinetypeTableRecord
  2
ByBlock
 70
     0
  3

 72
    65
 73
     0
 40
0.0
  0
LTYPE
  5
15
330
5
100
AcDbSymbolTableRecord
100
AcDbLinetypeTableRecord
  2
ByLayer
 70
     0
  3

 72
    65
 73
     0
 40
0.0
  0
LTYPE
  5
16
330
5
100
AcDbSymbolTableRecord
100
AcDbLinetypeTableRecord
  2
Continuous
 70
     0
  3
Solid line
 72
    65
 73
     0
 40
0.0
  0
LTYPE
  5
6E
330
5
100
AcDbSymbolTableRecord
100
AcDbLinetypeTableRecord
  2
HIDDEN
 70
     0
  3
Hidden __ __ __ __ __ __ __ __ __ __ __ __ __ __
 72
    65
 73
     2
 40
1.905
 49
1.27
 74
     0
 49
-0.635
 74
     0
  0
LTYPE
  5
6F
330
5
100
AcDbSymbolTableRecord
100
AcDbLinetypeTableRecord
  2
PHANTOM
 70
     0
  3
Phantom ______  __  __  ______  __  __  ______
 72
    65
 73
     6
 40
12.7
 49
6.35
 74
     0
 49
-1.27
 74
     0
 49
1.27
 74
     0
 49
-1.27
 74
     0
 49
1.27
 74
     0
 49
-1.27
 74
     0
  0
LTYPE
  5
70
330
5
100
AcDbSymbolTableRecord
100
AcDbLinetypeTableRecord
  2
CENTER
 70
     0
  3
Center ____ _ ____ _ ____ _ ____ _ ____ _ ____
 72
    65
 73
     4
 40
10.16
 49
6.35
 74
     0
 49
-1.27
 74
     0
 49
1.27
 74
     0
 49
-1.27
 74
     0
  0
LTYPE
  5
71
330
5
100
AcDbSymbolTableRecord
100
AcDbLinetypeTableRecord
  2
CENTERX2
 70
     0
  3
Center (2x) ________  __  ________  __  _____
 72
    65
 73
     4
 40
20.32
 49
12.7
 74
     0
 49
-2.54
 74
     0
 49
2.54
 74
     0
 49
-2.54
 74
     0
  0
LTYPE
  5
72
330
5
100
AcDbSymbolTableRecord
100
AcDbLinetypeTableRecord
  2
DOT2
 70
     0
  3
Dot (.5x) ........................................
 72
    65
 73
     2
 40
0.635
 49
0.0
 74
     0
 49
-0.635
 74
     0
  0
ENDTAB
  0
TABLE
  2
LAYER
  5
2
330
0
100
AcDbSymbolTable
 70
    17
  0
LAYER
  5
10
330
2
100
AcDbSymbolTableRecord
100
AcDbLayerTableRecord
  2
0
 70
     0
 62
     7
  6
Continuous
370
    -3
390
F
  0
LAYER
  5
73
330
2
100
AcDbSymbolTableRecord
100
AcDbLayerTableRecord
  2
FORMAT
 70
     0
 62
     7
  6
Continuous
370
    -3
390
F
  0
LAYER
  5
74
330
2
100
AcDbSymbolTableRecord
100
AcDbLayerTableRecord
  2
YARDIMCI_GEOMETRI
 70
     0
 62
    -6
  6
Continuous
290
     0
370
    -3
390
F
  0
LAYER
  5
75
330
2
100
AcDbSymbolTableRecord
100
AcDbLayerTableRecord
  2
SAYFA_CERCEVESI
 70
     0
 62
     7
  6
Continuous
370
    25
390
F
  0
LAYER
  5
76
330
2
100
AcDbSymbolTableRecord
100
AcDbLayerTableRecord
  2
ANTET
 70
     0
 62
     7
  6
Continuous
370
    -3
390
F
  0
LAYER
  5
77
330
2
100
AcDbSymbolTableRecord
100
AcDbLayerTableRecord
  2
OLCU
 70
     0
 62
   150
  6
Continuous
370
    -3
390
F
  0
LAYER
  5
78
330
2
100
AcDbSymbolTableRecord
100
AcDbLayerTableRecord
  2
METIN
 70
     0
 62
    96
  6
Continuous
370
    -3
390
F
  0
LAYER
  5
79
330
2
100
AcDbSymbolTableRecord
100
AcDbLayerTableRecord
  2
BALON
 70
     0
 62
     5
  6
Continuous
370
    -3
390
F
  0
LAYER
  5
7A
330
2
100
AcDbSymbolTableRecord
100
AcDbLayerTableRecord
  2
VURGU
 70
     0
 62
     7
  6
Continuous
370
    -3
390
F
  0
LAYER
  5
7B
330
2
100
AcDbSymbolTableRecord
100
AcDbLayerTableRecord
  2
SILIK
 70
     0
 62
     7
  6
Continuous
370
    -3
390
F
  0
LAYER
  5
7C
330
2
100
AcDbSymbolTableRecord
100
AcDbLayerTableRecord
  2
MODEL
 70
     0
 62
     7
  6
Continuous
370
    -3
390
F
  0
LAYER
  5
7D
330
2
100
AcDbSymbolTableRecord
100
AcDbLayerTableRecord
  2
DETAYLANDıRMA
 70
     0
 62
   190
  6
Continuous
370
    -3
390
F
  0
LAYER
  5
7E
330
2
100
AcDbSymbolTableRecord
100
AcDbLayerTableRecord
  2
TOLERANS
 70
     0
 62
   230
  6
Continuous
370
    -3
390
F
  0
LAYER
  5
7F
330
2
100
AcDbSymbolTableRecord
100
AcDbLayerTableRecord
  2
MERKEZ_CIZGILERI
 70
     0
 62
    30
  6
Continuous
370
    -3
390
F
  0
LAYER
  5
80
330
2
100
AcDbSymbolTableRecord
100
AcDbLayerTableRecord
  2
KESIT-DETAY_CIZGILERI
 70
     0
 62
     7
  6
Continuous
370
    -3
390
F
  0
LAYER
  5
81
330
2
100
AcDbSymbolTableRecord
100
AcDbLayerTableRecord
  2
\U+041E\U+0421\U+0415\U+0412\U+042B\U+0415
 70
     0
 62
     7
  6
Continuous
370
    -3
390
F
  0
LAYER
  5
82
330
2
100
AcDbSymbolTableRecord
100
AcDbLayerTableRecord
  2
\U+0412\U+041E\U+0414\U+042F\U+041D\U+042B\U+0415_\U+0417\U+041D\U+0410\U+041A\U+0418
 70
     0
 62
    11
  6
Continuous
370
    -3
390
F
  0
ENDTAB
  0
TABLE
  2
STYLE
  5
3
330
0
100
AcDbSymbolTable
 70
     1
  0
STYLE
  5
11
330
3
100
AcDbSymbolTableRecord
100
AcDbTextStyleTableRecord
  2
Standard
 70
     0
 40
0.0
 41
1.0
 50
0.0
 71
     0
 42
3.5
  3
txt
  4

  0
ENDTAB
  0
TABLE
  2
VIEW
  5
6
330
0
100
AcDbSymbolTable
 70
     0
  0
ENDTAB
  0
TABLE
  2
UCS
  5
7
330
0
100
AcDbSymbolTable
 70
     0
  0
ENDTAB
  0
TABLE
  2
APPID
  5
9
330
0
100
AcDbSymbolTable
 70
     1
  0
APPID
  5
12
330
9
100
AcDbSymbolTableRecord
100
AcDbRegAppTableRecord
  2
ACAD
 70
     0
  0
ENDTAB
  0
TABLE
  2
DIMSTYLE
  5
A
330
0
100
AcDbSymbolTable
 70
     1
100
AcDbDimStyleTable
  0
DIMSTYLE
105
27
330
A
100
AcDbSymbolTableRecord
100
AcDbDimStyleTableRecord
  2
ISO-25
 70
     0
 41
2.5
 42
0.625
 43
3.75
 44
1.25
 73
     0
 74
     0
 77
     1
 78
     8
140
2.5
141
2.5
143
0.0393700787
147
0.625
171
     3
172
     1
178
     0
271
     2
272
     2
274
     3
278
    44
283
     0
284
     8
340
11
  0
ENDTAB
  0
TABLE
  2
BLOCK_RECORD
  5
1
330
0
100
AcDbSymbolTable
 70
     3
  0
BLOCK_RECORD
  5
1F
330
1
100
AcDbSymbolTableRecord
100
AcDbBlockTableRecord
  2
*Model_Space
340
22
  0
BLOCK_RECORD
  5
1B
330
1
100
AcDbSymbolTableRecord
100
AcDbBlockTableRecord
  2
*Paper_Space
340
1E
  0
BLOCK_RECORD
  5
23
330
1
100
AcDbSymbolTableRecord
100
AcDbBlockTableRecord
  2
*Paper_Space0
340
26
  0
BLOCK_RECORD
  5
93
330
1
100
AcDbSymbolTableRecord
100
AcDbBlockTableRecord
  2
SW_CENTERMARKSYMBOL_0
340
0
102
{BLKREFS
331
9E
102
}
  0
BLOCK_RECORD
  5
A5
330
1
100
AcDbSymbolTableRecord
100
AcDbBlockTableRecord
  2
SW_CENTERMARKSYMBOL_1
340
0
102
{BLKREFS
331
B0
102
}
  0
ENDTAB
  0
ENDSEC
  0
SECTION
  2
BLOCKS
  0
BLOCK
  5
20
330
1F
100
AcDbEntity
  8
0
100
AcDbBlockBegin
  2
*Model_Space
 70
     0
 10
0.0
 20
0.0
 30
0.0
  3
*Model_Space
  1

  0
ENDBLK
  5
21
330
1F
100
AcDbEntity
  8
0
100
AcDbBlockEnd
  0
BLOCK
  5
1C
330
1B
100
AcDbEntity
 67
     1
  8
0
100
AcDbBlockBegin
  2
*Paper_Space
 70
     0
 10
0.0
 20
0.0
 30
0.0
  3
*Paper_Space
  1

  0
ENDBLK
  5
1D
330
1B
100
AcDbEntity
 67
     1
  8
0
100
AcDbBlockEnd
  0
BLOCK
  5
24
330
23
100
AcDbEntity
  8
0
100
AcDbBlockBegin
  2
*Paper_Space0
 70
     0
 10
0.0
 20
0.0
 30
0.0
  3
*Paper_Space0
  1

  0
ENDBLK
  5
25
330
23
100
AcDbEntity
  8
0
100
AcDbBlockEnd
  0
BLOCK
  5
94
330
93
100
AcDbEntity
  8
0
100
AcDbBlockBegin
  2
SW_CENTERMARKSYMBOL_0
 70
     0
 10
0.0
 20
0.0
 30
0.0
  3
SW_CENTERMARKSYMBOL_0
  1

  0
LINE
  5
96
330
93
100
AcDbEntity
  8
FORMAT
 62
     0
100
AcDbLine
 10
0.0
 20
0.0
 30
0.0
 11
0.0
 21
2.5
 31
0.0
  0
LINE
  5
97
330
93
100
AcDbEntity
  8
FORMAT
 62
     0
100
AcDbLine
 10
0.0
 20
0.0
 30
0.0
 11
-2.5
 21
0.0
 31
0.0
  0
LINE
  5
98
330
93
100
AcDbEntity
  8
FORMAT
 62
     0
100
AcDbLine
 10
0.0
 20
0.0
 30
0.0
 11
0.0
 21
-2.5
 31
0.0
  0
LINE
  5
99
330
93
100
AcDbEntity
  8
FORMAT
 62
     0
100
AcDbLine
 10
0.0
 20
0.0
 30
0.0
 11
2.5
 21
0.0
 31
0.0
  0
LINE
  5
9A
330
93
100
AcDbEntity
  8
FORMAT
 62
     0
100
AcDbLine
 10
0.0
 20
5.0
 30
0.0
 11
0.0
 21
57.5
 31
0.0
  0
LINE
  5
9B
330
93
100
AcDbEntity
  8
FORMAT
 62
     0
100
AcDbLine
 10
-5.0
 20
0.0
 30
0.0
 11
-57.5
 21
0.0
 31
0.0
  0
LINE
  5
9C
330
93
100
AcDbEntity
  8
FORMAT
 62
     0
100
AcDbLine
 10
0.0
 20
-5.0
 30
0.0
 11
0.0
 21
-57.5
 31
0.0
  0
LINE
  5
9D
330
93
100
AcDbEntity
  8
FORMAT
 62
     0
100
AcDbLine
 10
5.0
 20
0.0
 30
0.0
 11
57.5
 21
0.0
 31
0.0
  0
ENDBLK
  5
95
330
93
100
AcDbEntity
  8
0
100
AcDbBlockEnd
  0
BLOCK
  5
A6
330
A5
100
AcDbEntity
  8
0
100
AcDbBlockBegin
  2
SW_CENTERMARKSYMBOL_1
 70
     0
 10
0.0
 20
0.0
 30
0.0
  3
SW_CENTERMARKSYMBOL_1
  1

  0
LINE
  5
A8
330
A5
100
AcDbEntity
  8
FORMAT
 62
     0
100
AcDbLine
 10
0.0
 20
0.0
 30
0.0
 11
0.0
 21
2.5
 31
0.0
  0
LINE
  5
A9
330
A5
100
AcDbEntity
  8
FORMAT
 62
     0
100
AcDbLine
 10
0.0
 20
0.0
 30
0.0
 11
-2.5
 21
0.0
 31
0.0
  0
LINE
  5
AA
330
A5
100
AcDbEntity
  8
FORMAT
 62
     0
100
AcDbLine
 10
0.0
 20
0.0
 30
0.0
 11
0.0
 21
-2.5
 31
0.0
  0
LINE
  5
AB
330
A5
100
AcDbEntity
  8
FORMAT
 62
     0
100
AcDbLine
 10
0.0
 20
0.0
 30
0.0
 11
2.5
 21
0.0
 31
0.0
  0
LINE
  5
AC
330
A5
100
AcDbEntity
  8
FORMAT
 62
     0
100
AcDbLine
 10
0.0
 20
5.0
 30
0.0
 11
0.0
 21
57.5
 31
0.0
  0
LINE
  5
AD
330
A5
100
AcDbEntity
  8
FORMAT
 62
     0
100
AcDbLine
 10
-5.0
 20
0.0
 30
0.0
 11
-57.5
 21
0.0
 31
0.0
  0
LINE
  5
AE
330
A5
100
AcDbEntity
  8
FORMAT
 62
     0
100
AcDbLine
 10
0.0
 20
-5.0
 30
0.0
 11
0.0
 21
-57.5
 31
0.0
  0
LINE
  5
AF
330
A5
100
AcDbEntity
  8
FORMAT
 62
     0
100
AcDbLine
 10
5.0
 20
0.0
 30
0.0
 11
57.5
 21
0.0
 31
0.0
  0
ENDBLK
  5
A7
330
A5
100
AcDbEntity
  8
0
100
AcDbBlockEnd
  0
ENDSEC
  0
SECTION
  2
ENTITIES
  0
LINE
  5
83
330
1F
100
AcDbEntity
  8
0
  6
Continuous
 62
     7
370
    25
100
AcDbLine
 10
83.9263434688
 20
220.8391882041
 30
0.0
 11
83.9263434688
 21
43.3553911307
 31
0.0
  0
LINE
  5
84
330
1F
100
AcDbEntity
  8
0
  6
Continuous
 62
     7
370
    25
100
AcDbLine
 10
193.9263428728
 20
43.3553911307
 30
0.0
 11
193.9263428728
 21
220.8391882041
 31
0.0
  0
LINE
  5
85
330
1F
100
AcDbEntity
  8
0
  6
Continuous
 62
     7
370
    25
100
AcDbLine
 10
193.9263428728
 20
220.8391882041
 30
0.0
 11
193.9263428728
 21
294.3553782561
 31
0.0
  0
LINE
  5
86
330
1F
100
AcDbEntity
  8
0
  6
Continuous
 62
     7
370
    25
100
AcDbLine
 10
193.9263428728
 20
-81.6446088693
 30
0.0
 11
193.9263428728
 21
43.3553911307
 31
0.0
  0
LINE
  5
87
330
1F
100
AcDbEntity
  8
0
  6
Continuous
 62
     7
370
    25
100
AcDbLine
 10
83.9263434688
 20
43.3553911307
 30
0.0
 11
83.9263434688
 21
-81.6446088693
 31
0.0
  0
LINE
  5
88
330
1F
100
AcDbEntity
  8
0
  6
Continuous
 62
     7
370
    25
100
AcDbLine
 10
83.9263434688
 20
294.3553782561
 30
0.0
 11
83.9263434688
 21
220.8391882041
 31
0.0
  0
LWPOLYLINE
  5
89
330
1F
100
AcDbEntity
  8
0
  6
Continuous
 62
     7
370
    25
100
AcDbPolyline
 90
       74
 70
   128
 43
0.0
 10
138.9263431708
 20
252.6590086082
 10
135.0579272191
 20
252.5412000278
 10
131.2181517648
 20
252.1886981586
 10
127.435444964
 20
251.6040958026
 10
123.7378130833
 20
250.7917142966
 10
120.152630953
 20
249.7576035121
 10
116.706443129
 20
248.5093630412
 10
113.4247641245
 20
247.0562614062
 10
110.331890283
 20
245.4090572456
 10
107.4507172386
 20
243.5799695113
 10
104.802583454
 20
241.5824986556
 10
102.4070839564
 20
239.4314564326
 10
100.2819660286
 20
237.1427572826
 10
98.442954121
 20
234.7333587268
 10
96.903667895
 20
232.2210825542
 10
95.6755030135
 20
229.6245552161
 10
94.7675529102
 20
226.9629694083
 10
94.1865380088
 20
224.2560542682
 10
93.9367610196
 20
221.5238369563
 10
94.0200696866
 20
218.7865532497
 10
94.4358530621
 20
216.0644687274
 10
95.1810228805
 20
213.3777297595
 10
96.2500731627
 20
210.746214495
 10
97.6350802163
 20
208.189443455
 10
99.3257957677
 20
205.7263411143
 10
101.3096953909
 20
203.3751166919
 10
103.572101442
 20
201.1532045463
 10
106.0962538401
 20
199.0769959548
 10
108.8634683917
 20
197.1619583228
 10
111.8532597254
 20
195.4221881488
 10
115.0434903035
 20
193.8706196407
 10
118.4105417857
 20
192.5186968902
 10
121.9294845293
 20
191.3764334777
 10
125.5742666478
 20
190.4523230651
 10
129.3179021383
 20
189.7531903842
 10
133.1326753067
 20
189.2842210391
 10
136.9903426318
 20
189.0488422969
 10
140.8623437098
 20
189.0488422969
 10
144.7200110348
 20
189.2842210391
 10
148.5347842033
 20
189.7531903842
 10
152.2784196938
 20
190.4523230651
 10
155.9232018123
 20
191.3764334777
 10
159.4421445558
 20
192.5186968902
 10
162.809196038
 20
193.8706196407
 10
165.9994266162
 20
195.4221881488
 10
168.9892179499
 20
197.1619583228
 10
171.7564325015
 20
199.0769959548
 10
174.2805848996
 20
201.1532045463
 10
176.5429909507
 20
203.3751166919
 10
178.5268905739
 20
205.7263411143
 10
180.2176061253
 20
208.189443455
 10
181.6026131789
 20
210.746214495
 10
182.6716634611
 20
213.3777297595
 10
183.4168332795
 20
216.0644687274
 10
183.832616655
 20
218.7865532497
 10
183.915925322
 20
221.5238369563
 10
183.6661483327
 20
224.2560542682
 10
183.0851334313
 20
226.9629694083
 10
182.1771833281
 20
229.6245552161
 10
180.9490184466
 20
232.2210825542
 10
179.4097322206
 20
234.7333587268
 10
177.570720313
 20
237.1427572826
 10
175.4456023852
 20
239.4314564326
 10
173.0501028875
 20
241.5824986556
 10
170.401969103
 20
243.5799695113
 10
167.5207960586
 20
245.4090572456
 10
164.427922217
 20
247.0562614062
 10
161.1462432126
 20
248.5093630412
 10
157.7000553886
 20
249.7576035121
 10
154.1148732583
 20
250.7917142966
 10
150.4172413776
 20
251.6040958026
 10
146.6345345768
 20
252.1886981586
 10
142.7947591225
 20
252.5412000278
 10
138.9263431708
 20
252.6590086082
  0
LWPOLYLINE
  5
8A
330
1F
100
AcDbEntity
  8
0
  6
Continuous
 62
     7
370
    25
100
AcDbPolyline
 90
       82
 70
   128
 43
0.0
 10
138.9263431708
 20
259.7300566295
 10
134.6642599607
 20
259.6131123164
 10
130.4278095419
 20
259.262994633
 10
126.242470106
 20
258.6817599395
 10
122.1334125082
 20
257.8729547122
 10
118.1253503243
 20
256.8414069274
 10
114.2423889766
 20
255.5933452705
 10
110.5078785847
 20
254.1362799266
 10
106.9442789237
 20
252.4789429763
 10
103.573025314
 20
250.6313181976
 10
100.4143889228
 20
248.6045516589
 10
97.4873687307
 20
246.4107729056
 10
94.8095667342
 20
244.0632141688
 10
92.3970910887
 20
241.575971947
 10
90.2644443492
 20
238.9640368083
 10
88.4244564156
 20
236.2430847743
 10
86.8881951253
 20
233.42947732
 10
85.6648954729
 20
230.5401719669
 10
84.7619149069
 20
227.5925136665
 10
84.1846886257
 20
224.604264603
 10
83.9366848747
 20
221.5933359721
 10
84.0193937699
 20
218.5778773883
 10
84.4323198477
 20
215.5760384658
 10
85.1729820649
 20
212.6058496097
 10
86.2369212488
 20
209.685162411
 10
87.6177410761
 20
206.8315602401
 10
89.3071341495
 20
204.0622092345
 10
91.2949453274
 20
201.3937688926
 10
93.5692164282
 20
198.8422430614
 10
96.1162719111
 20
196.4230395415
 10
98.9207933823
 20
194.1506422618
 10
101.9659090022
 20
192.0387900928
 10
105.2333126942
 20
190.1001192191
 10
108.7033498267
 20
188.3463419536
 10
112.3551494608
 20
186.7879785159
 10
116.1667528729
 20
185.4343868354
 10
120.1152346263
 20
184.2937327483
 10
124.1768497209
 20
183.3728707889
 10
128.327168634
 20
182.6773143867
 10
132.5412328521
 20
182.2112954715
 10
136.7936978283
 20
181.977555857
 10
141.0589885133
 20
181.977555857
 10
145.3114534895
 20
182.2112954715
 10
149.5255177076
 20
182.6773143867
 10
153.6758366207
 20
183.3728707889
 10
157.7374517153
 20
184.2937327483
 10
161.6859334687
 20
185.4343868354
 10
165.4975368808
 20
186.7879785159
 10
169.1493365149
 20
188.3463419536
 10
172.6193736474
 20
190.1001192191
 10
175.8867773394
 20
192.0387900928
 10
178.9318929593
 20
194.1506422618
 10
181.7364144305
 20
196.4230395415
 10
184.2834699134
 20
198.8422430614
 10
186.5577410142
 20
201.3937688926
 10
188.5455521921
 20
204.0622092345
 10
190.2349452654
 20
206.8315602401
 10
191.6157650928
 20
209.685162411
 10
192.6797042767
 20
212.6058496097
 10
193.4203664939
 20
215.5760384658
 10
193.8332925717
 20
218.5778773883
 10
193.9160014669
 20
221.5933359721
 10
193.6679977159
 20
224.604264603
 10
193.0907714347
 20
227.5925136665
 10
192.1877908687
 20
230.5401719669
 10
190.9644912163
 20
233.42947732
 10
189.428229926
 20
236.2430847743
 10
187.5882419924
 20
238.9640368083
 10
185.4555952529
 20
241.575971947
 10
183.0431196074
 20
244.0632141688
 10
180.3653176109
 20
246.4107729056
 10
177.4382974187
 20
248.6045516589
 10
174.2796610276
 20
250.6313181976
 10
170.9084074179
 20
252.4789429763
 10
167.3448077569
 20
254.1362799266
 10
163.610297365
 20
255.5933452705
 10
159.7273360173
 20
256.8414069274
 10
155.7192738334
 20
257.8729547122
 10
151.6102162356
 20
258.6817599395
 10
147.4248767997
 20
259.262994633
 10
143.1884263808
 20
259.6131123164
 10
138.9263431708
 20
259.7300566295
  0
ELLIPSE
  5
8B
330
1F
100
AcDbEntity
  8
0
  6
Continuous
 62
     7
370
    25
100
AcDbEllipse
 10
138.9263431708
 20
43.3553911307
 30
0.0
 11
54.99999999999997
 21
0.0
 31
0.0
210
0.0
220
0.0
230
1.0
 40
0.4142135624
 41
3.141592653589793
 42
6.283185307179586
  0
LINE
  5
8C
330
1F
100
AcDbEntity
  8
0
  6
Continuous
 62
     7
370
    25
100
AcDbLine
 10
83.9263434688
 20
-81.6446088693
 30
0.0
 11
193.9263428728
 21
-81.6446088693
 31
0.0
  0
LINE
  5
8D
330
1F
100
AcDbEntity
  8
0
  6
Continuous
 62
     7
370
    25
100
AcDbLine
 10
83.9263434688
 20
294.3553782561
 30
0.0
 11
193.9263428728
 21
294.3553782561
 31
0.0
  0
LINE
  5
8E
330
1F
100
AcDbEntity
  8
0
  6
Continuous
 62
     7
370
    25
100
AcDbLine
 10
83.9263434688
 20
-243.7054771608
 30
0.0
 11
83.9263434688
 21
-421.1892742342
 31
0.0
  0
LINE
  5
8F
330
1F
100
AcDbEntity
  8
0
  6
Continuous
 62
     7
370
    25
100
AcDbLine
 10
193.9263428728
 20
-421.1892742342
 30
0.0
 11
193.9263428728
 21
-243.7054771608
 31
0.0
  0
CIRCLE
  5
90
330
1F
100
AcDbEntity
  8
0
  6
Continuous
 62
     7
370
    25
100
AcDbCircle
 10
138.9263431708
 20
-421.1892742342
 30
0.0
 40
45.00000000000003
  0
CIRCLE
  5
91
330
1F
100
AcDbEntity
  8
0
  6
Continuous
 62
     7
370
    25
100
AcDbCircle
 10
138.9263431708
 20
-421.1892742342
 30
0.0
 40
55.0
  0
LWPOLYLINE
  5
92
330
1F
100
AcDbEntity
  8
0
  6
Continuous
 62
     7
370
    25
100
AcDbPolyline
 90
       42
 70
   128
 43
0.0
 10
83.9263434688
 20
-243.7054771608
 10
84.0193937699
 20
-241.444166345
 10
84.4323198477
 20
-238.4423125213
 10
85.1729820649
 20
-235.4721236652
 10
86.2369212488
 20
-232.5514513677
 10
87.6177410761
 20
-229.6978491968
 10
89.3071341495
 20
-226.9284981912
 10
91.2949453274
 20
-224.2600429481
 10
93.5692164282
 20
-221.708532018
 10
96.1162719111
 20
-219.2893135971
 10
98.9207933823
 20
-217.0169312185
 10
101.9659090022
 20
-214.9050641483
 10
105.2333126942
 20
-212.9664081758
 10
108.7033498267
 20
-211.2126160091
 10
112.3551494608
 20
-209.6542525714
 10
116.1667528729
 20
-208.3006608909
 10
120.1152346263
 20
-207.1600068039
 10
124.1768497209
 20
-206.2391448444
 10
128.327168634
 20
-205.5436033434
 10
132.5412328521
 20
-205.077569527
 10
136.7936978283
 20
-204.8438448137
 10
141.0589885133
 20
-204.8438448137
 10
145.3114534895
 20
-205.077569527
 10
149.5255177076
 20
-205.5436033434
 10
153.6758366207
 20
-206.2391448444
 10
157.7374517153
 20
-207.1600068039
 10
161.6859334687
 20
-208.3006608909
 10
165.4975368808
 20
-209.6542525714
 10
169.1493365149
 20
-211.2126160091
 10
172.6193736474
 20
-212.9664081758
 10
175.8867773394
 20
-214.9050641483
 10
178.9318929593
 20
-217.0169312185
 10
181.7364144305
 20
-219.2893135971
 10
184.2834699134
 20
-221.708532018
 10
186.5577410142
 20
-224.2600429481
 10
188.5455521921
 20
-226.9284981912
 10
190.2349452654
 20
-229.6978491968
 10
191.6157650928
 20
-232.5514513677
 10
192.6797042767
 20
-235.4721236652
 10
193.4203664939
 20
-238.4423125213
 10
193.8332925717
 20
-241.444166345
 10
193.9263428728
 20
-243.7054771608
  0
INSERT
  5
9E
330
1F
100
AcDbEntity
  8
FORMAT
100
AcDbBlockReference
  2
SW_CENTERMARKSYMBOL_0
 10
138.9263431708
 20
-421.1892742342
 30
0.0
  0
LINE
  5
9F
330
1F
100
AcDbEntity
  8
0
  6
Continuous
 62
     7
370
    25
100
AcDbLine
 10
193.9263428728
 20
436.4726334409
 30
0.0
 11
193.9263428728
 21
613.9564305143
 31
0.0
  0
LINE
  5
A0
330
1F
100
AcDbEntity
  8
0
  6
Continuous
 62
     7
370
    25
100
AcDbLine
 10
83.9263434688
 20
613.9564305143
 30
0.0
 11
83.9263434688
 21
436.4726334409
 31
0.0
  0
CIRCLE
  5
A1
330
1F
100
AcDbEntity
  8
0
  6
Continuous
 62
     7
370
    25
100
AcDbCircle
 10
138.9263431708
 20
613.9564305143
 30
0.0
 40
45.00000000000003
  0
CIRCLE
  5
A2
330
1F
100
AcDbEntity
  8
0
  6
Continuous
 62
     7
370
    25
100
AcDbCircle
 10
138.9263431708
 20
613.9564305143
 30
0.0
 40
55.0
  0
LWPOLYLINE
  5
A3
330
1F
100
AcDbEntity
  8
0
  6
Continuous
 62
     7
370
    25
100
AcDbPolyline
 90
       82
 70
   128
 43
0.0
 10
138.9263431708
 20
475.3635018663
 10
134.6642599607
 20
475.2465575533
 10
130.4278095419
 20
474.8964100675
 10
126.242470106
 20
474.3151902752
 10
122.1334125082
 20
473.5063850479
 10
118.1253503243
 20
472.4748372631
 10
114.2423889766
 20
471.2267756061
 10
110.5078785847
 20
469.7697102623
 10
106.9442789237
 20
468.112373312
 10
103.573025314
 20
466.2647634344
 10
100.4143889228
 20
464.2379819946
 10
97.4873687307
 20
462.0442032413
 10
94.8095667342
 20
459.6966445045
 10
92.3970910887
 20
457.2094171838
 10
90.2644443492
 20
454.597467144
 10
88.4244564156
 20
451.87651511
 10
86.8881951253
 20
449.0629225568
 10
85.6648954729
 20
446.1736172037
 10
84.7619149069
 20
443.2259589033
 10
84.1846886257
 20
440.2376949386
 10
83.9366848747
 20
437.226781209
 10
84.0193937699
 20
434.2113226251
 10
84.4323198477
 20
431.2094688015
 10
85.1729820649
 20
428.2392799453
 10
86.2369212488
 20
425.3186076479
 10
87.6177410761
 20
422.4650054769
 10
89.3071341495
 20
419.6956544714
 10
91.2949453274
 20
417.0271992283
 10
93.5692164282
 20
414.4756882982
 10
96.1162719111
 20
412.0564698772
 10
98.9207933823
 20
409.7840874986
 10
101.9659090022
 20
407.6722204284
 10
105.2333126942
 20
405.733564456
 10
108.7033498267
 20
403.9797722892
 10
112.3551494608
 20
402.4214088516
 10
116.1667528729
 20
401.0678171711
 10
120.1152346263
 20
399.927163084
 10
124.1768497209
 20
399.0063011245
 10
128.327168634
 20
398.3107596235
 10
132.5412328521
 20
397.8447258072
 10
136.7936978283
 20
397.6110010938
 10
141.0589885133
 20
397.6110010938
 10
145.3114534895
 20
397.8447258072
 10
149.5255177076
 20
398.3107596235
 10
153.6758366207
 20
399.0063011245
 10
157.7374517153
 20
399.927163084
 10
161.6859334687
 20
401.0678171711
 10
165.4975368808
 20
402.4214088516
 10
169.1493365149
 20
403.9797722892
 10
172.6193736474
 20
405.733564456
 10
175.8867773394
 20
407.6722204284
 10
178.9318929593
 20
409.7840874986
 10
181.7364144305
 20
412.0564698772
 10
184.2834699134
 20
414.4756882982
 10
186.5577410142
 20
417.0271992283
 10
188.5455521921
 20
419.6956544714
 10
190.2349452654
 20
422.4650054769
 10
191.6157650928
 20
425.3186076479
 10
192.6797042767
 20
428.2392799453
 10
193.4203664939
 20
431.2094688015
 10
193.8332925717
 20
434.2113226251
 10
193.9160014669
 20
437.226781209
 10
193.6679977159
 20
440.2376949386
 10
193.0907714347
 20
443.2259589033
 10
192.1877908687
 20
446.1736172037
 10
190.9644912163
 20
449.0629225568
 10
189.428229926
 20
451.87651511
 10
187.5882419924
 20
454.597467144
 10
185.4555952529
 20
457.2094171838
 10
183.0431196074
 20
459.6966445045
 10
180.3653176109
 20
462.0442032413
 10
177.4382974187
 20
464.2379819946
 10
174.2796610276
 20
466.2647634344
 10
170.9084074179
 20
468.112373312
 10
167.3448077569
 20
469.7697102623
 10
163.610297365
 20
471.2267756061
 10
159.7273360173
 20
472.4748372631
 10
155.7192738334
 20
473.5063850479
 10
151.6102162356
 20
474.3151902752
 10
147.4248767997
 20
474.8964100675
 10
143.1884263808
 20
475.2465575533
 10
138.9263431708
 20
475.3635018663
  0
LWPOLYLINE
  5
A4
330
1F
100
AcDbEntity
  8
0
  6
Continuous
 62
     7
370
    25
100
AcDbPolyline
 90
       74
 70
   128
 43
0.0
 10
138.9263431708
 20
468.2924389438
 10
135.0579272191
 20
468.1746452646
 10
131.2181517648
 20
467.8221433954
 10
127.435444964
 20
467.2375410394
 10
123.7378130833
 20
466.4251595335
 10
120.152630953
 20
465.3910338478
 10
116.706443129
 20
464.1427933769
 10
113.4247641245
 20
462.6896917419
 10
110.331890283
 20
461.0425024824
 10
107.4507172386
 20
459.213399847
 10
104.802583454
 20
457.2159289913
 10
102.4070839564
 20
455.0648867683
 10
100.2819660286
 20
452.7761876182
 10
98.442954121
 20
450.3667890625
 10
96.903667895
 20
447.8545128898
 10
95.6755030135
 20
445.2579855518
 10
94.7675529102
 20
442.596399744
 10
94.1865380088
 20
439.8894846039
 10
93.9367610196
 20
437.157267292
 10
94.0200696866
 20
434.4199835853
 10
94.4358530621
 20
431.6978990631
 10
95.1810228805
 20
429.0111600952
 10
96.2500731627
 20
426.3796597318
 10
97.6350802163
 20
423.8228886919
 10
99.3257957677
 20
421.35977145
 10
101.3096953909
 20
419.0085470276
 10
103.572101442
 20
416.7866199808
 10
106.0962538401
 20
414.7104411916
 10
108.8634683917
 20
412.7953886585
 10
111.8532597254
 20
411.0556184845
 10
115.0434903035
 20
409.5040350752
 10
118.4105417857
 20
408.1521272258
 10
121.9294845293
 20
407.0098787145
 10
125.5742666478
 20
406.0857683019
 10
129.3179021383
 20
405.386635621
 10
133.1326753067
 20
404.9176513748
 10
136.9903426318
 20
404.6822875337
 10
140.8623437098
 20
404.6822875337
 10
144.7200110348
 20
404.9176513748
 10
148.5347842033
 20
405.386635621
 10
152.2784196938
 20
406.0857683019
 10
155.9232018123
 20
407.0098787145
 10
159.4421445558
 20
408.1521272258
 10
162.809196038
 20
409.5040350752
 10
165.9994266162
 20
411.0556184845
 10
168.9892179499
 20
412.7953886585
 10
171.7564325015
 20
414.7104411916
 10
174.2805848996
 20
416.7866199808
 10
176.5429909507
 20
419.0085470276
 10
178.5268905739
 20
421.35977145
 10
180.2176061253
 20
423.8228886919
 10
181.6026131789
 20
426.3796597318
 10
182.6716634611
 20
429.0111600952
 10
183.4168332795
 20
431.6978990631
 10
183.832616655
 20
434.4199835853
 10
183.915925322
 20
437.157267292
 10
183.6661483327
 20
439.8894846039
 10
183.0851334313
 20
442.596399744
 10
182.1771833281
 20
445.2579855518
 10
180.9490184466
 20
447.8545128898
 10
179.4097322206
 20
450.3667890625
 10
177.570720313
 20
452.7761876182
 10
175.4456023852
 20
455.0648867683
 10
173.0501028875
 20
457.2159289913
 10
170.401969103
 20
459.213399847
 10
167.5207960586
 20
461.0425024824
 10
164.427922217
 20
462.6896917419
 10
161.1462432126
 20
464.1427933769
 10
157.7000553886
 20
465.3910338478
 10
154.1148732583
 20
466.4251595335
 10
150.4172413776
 20
467.2375410394
 10
146.6345345768
 20
467.8221433954
 10
142.7947591225
 20
468.1746452646
 10
138.9263431708
 20
468.2924389438
  0
INSERT
  5
B0
330
1F
100
AcDbEntity
  8
FORMAT
100
AcDbBlockReference
  2
SW_CENTERMARKSYMBOL_1
 10
138.9263431708
 20
613.9564305143
 30
0.0
  0
LINE
  5
B1
330
1F
100
AcDbEntity
  8
0
  6
Continuous
 62
     7
370
    25
100
AcDbLine
 10
513.4146652467
 20
176.137135134
 30
0.0
 11
513.4146652467
 21
294.3553782561
 31
0.0
  0
LINE
  5
B2
330
1F
100
AcDbEntity
  8
0
  6
Continuous
 62
     7
370
    25
100
AcDbLine
 10
513.4146652467
 20
-81.6446088693
 30
0.0
 11
513.4146652467
 21
20.5736465314
 31
0.0
  0
LINE
  5
B3
330
1F
100
AcDbEntity
  8
0
  6
Continuous
 62
     7
370
    25
100
AcDbLine
 10
403.4146658427
 20
294.3553782561
 30
0.0
 11
403.4146658427
 21
-81.6446088693
 31
0.0
  0
LINE
  5
B4
330
1F
100
AcDbEntity
  8
0
  6
Continuous
 62
     7
370
    25
100
AcDbLine
 10
597.0075941927
 20
259.7300566295
 30
0.0
 11
513.4146652467
 21
176.137135134
 31
0.0
  0
LINE
  5
B5
330
1F
100
AcDbEntity
  8
0
  6
Continuous
 62
     7
370
    25
100
AcDbLine
 10
513.4146652467
 20
20.5736465314
 30
0.0
 11
674.7893459446
 21
181.9483197787
 31
0.0
  0
LINE
  5
B6
330
1F
100
AcDbEntity
  8
0
  6
Continuous
 62
     7
370
    25
100
AcDbLine
 10
458.4146655447
 20
-81.6446088693
 30
0.0
 11
513.4146652467
 21
-81.6446088693
 31
0.0
  0
LINE
  5
B7
330
1F
100
AcDbEntity
  8
0
  6
Continuous
 62
     7
370
    25
100
AcDbLine
 10
403.4146658427
 20
-81.6446088693
 30
0.0
 11
458.4146655447
 21
-81.6446088693
 31
0.0
  0
LINE
  5
B8
330
1F
100
AcDbEntity
  8
0
  6
Continuous
 62
     7
370
    25
100
AcDbLine
 10
458.4146655447
 20
294.3553782561
 30
0.0
 11
513.4146652467
 21
294.3553782561
 31
0.0
  0
LINE
  5
B9
330
1F
100
AcDbEntity
  8
0
  6
Continuous
 62
     7
370
    25
100
AcDbLine
 10
403.4146658427
 20
294.3553782561
 30
0.0
 11
458.4146655447
 21
294.3553782561
 31
0.0
  0
LWPOLYLINE
  5
BA
330
1F
100
AcDbEntity
  8
0
  6
Continuous
 62
     7
370
    25
100
AcDbPolyline
 90
       34
 70
   128
 43
0.0
 10
458.4146655447
 20
43.3553911307
 10
461.0316708035
 20
49.67339407
 10
463.6427477284
 20
55.9770918944
 10
466.2419819555
 20
62.2522092918
 10
468.8234842665
 20
68.4845007518
 10
471.3814073525
 20
74.6598697761
 10
473.9099565244
 20
80.7643390754
 10
476.4034032173
 20
86.7840505698
 10
478.8561008222
 20
92.7053845981
 10
481.262491206
 20
98.5149152139
 10
483.6171242691
 20
104.1995144942
 10
485.9146653957
 20
109.7462631324
 10
488.1499103553
 20
115.1426292518
 10
490.3177946157
 20
120.3763640979
 10
492.4134082443
 20
125.4356212476
 10
494.4320052213
 20
130.3089417079
 10
496.3690108902
 20
134.9852837184
 10
498.220036859
 20
139.4540674546
 10
499.9808921761
 20
143.7051452258
 10
501.6475870556
 20
147.7288908818
 10
503.2163440532
 20
151.5162147144
 10
504.6836092419
 20
155.0585038522
 10
506.0460633881
 20
158.3477563718
 10
507.3006145007
 20
161.3765067914
 10
508.4444239087
 20
164.1379154781
 10
509.4749025352
 20
166.6257090428
 10
510.3897108979
 20
168.8342548469
 10
511.1867777354
 20
170.7585311988
 10
511.8643000073
 20
172.3942316631
 10
512.4207428939
 20
173.737601147
 10
512.8548435218
 20
174.7855998138
 10
513.1656221396
 20
175.5359030822
 10
513.3523709423
 20
175.9867526153
 10
513.4146652467
 20
176.137135134
  0
LWPOLYLINE
  5
BB
330
1F
100
AcDbEntity
  8
0
  6
Continuous
 62
     7
370
    25
100
AcDbPolyline
 90
       22
 70
   128
 43
0.0
 10
513.4146652467
 20
20.5736465314
 10
513.2608740873
 20
20.6373489955
 10
512.8003611512
 20
20.82809876
 10
512.0357006139
 20
21.1448303917
 10
510.9711691088
 20
21.5857706526
 10
509.612723375
 20
22.148460851
 10
507.9679518289
 20
22.8297493914
 10
506.0460633881
 20
23.6258215764
 10
503.8577980644
 20
24.5322294095
 10
501.4153971619
 20
25.5439064959
 10
498.7325175948
 20
26.6551903942
 10
495.8241648323
 20
27.8598673204
 10
492.706603492
 20
29.1512019494
 10
489.3972679324
 20
30.5219746688
 10
485.9146653957
 20
31.9645188311
 10
482.2782716996
 20
33.4707654575
 10
478.5084213413
 20
35.0322879413
 10
474.6261994637
 20
36.6403542021
 10
470.6533170588
 20
38.2859788397
 10
466.6119898952
 20
39.9599454859
 10
462.5248207062
 20
41.6529111126
 10
458.4146655447
 20
43.3553911307
  0
LWPOLYLINE
  5
BC
330
1F
100
AcDbEntity
  8
0
  6
Continuous
 62
     7
370
    25
100
AcDbPolyline
 90
       42
 70
   128
 43
0.0
 10
597.0075941927
 20
259.7300566295
 10
597.1245385057
 20
259.6131123164
 10
597.4746859915
 20
259.262994633
 10
598.0559057838
 20
258.6817599395
 10
598.8647110111
 20
257.8729547122
 10
599.8962587959
 20
256.8414069274
 10
601.1443204529
 20
255.5933452705
 10
602.6013857967
 20
254.1362799266
 10
604.258722747
 20
252.4789429763
 10
606.1063326246
 20
250.6313181976
 10
608.1331140644
 20
248.6045516589
 10
610.3268928177
 20
246.4107729056
 10
612.6744515545
 20
244.0632141688
 10
615.1616788752
 20
241.575971947
 10
617.773628915
 20
238.9640368083
 10
620.494580949
 20
236.2430847743
 10
623.3081735022
 20
233.42947732
 10
626.1974788553
 20
230.5401719669
 10
629.1451371557
 20
227.5925136665
 10
632.1334011204
 20
224.604264603
 10
635.14431485
 20
221.5933359721
 10
638.1597734339
 20
218.5778773883
 10
641.1616272575
 20
215.5760384658
 10
644.1318161137
 20
212.6058496097
 10
647.0524884111
 20
209.685162411
 10
649.9060905821
 20
206.8315602401
 10
652.6754415876
 20
204.0622092345
 10
655.3438968308
 20
201.3937688926
 10
657.8954077608
 20
198.8422430614
 10
660.3146261818
 20
196.4230395415
 10
662.5870085604
 20
194.1506422618
 10
664.6988756306
 20
192.0387900928
 10
666.6375316031
 20
190.1001192191
 10
668.3913237698
 20
188.3463419536
 10
669.9496872074
 20
186.7879785159
 10
671.3032788879
 20
185.4343868354
 10
672.443932975
 20
184.2937327483
 10
673.3647949345
 20
183.3728707889
 10
674.0603364355
 20
182.6773143867
 10
674.5263702518
 20
182.2112954715
 10
674.7600949652
 20
181.977555857
 10
674.7893459446
 20
181.9483197787
  0
LINE
  5
BD
330
1F
100
AcDbEntity
  8
0
  6
Continuous
 62
     7
370
    25
100
AcDbLine
 10
-152.4724392626
 20
-81.6446088693
 30
0.0
 11
-152.4724392626
 21
294.3553782561
 31
0.0
  0
LINE
  5
BE
330
1F
100
AcDbEntity
  8
0
  6
Continuous
 62
     7
370
    25
100
AcDbLine
 10
-262.4724386665
 20
20.5736465314
 30
0.0
 11
-262.4724386665
 21
-81.6446088693
 31
0.0
  0
LINE
  5
BF
330
1F
100
AcDbEntity
  8
0
  6
Continuous
 62
     7
370
    25
100
AcDbLine
 10
-262.4724386665
 20
294.3553782561
 30
0.0
 11
-262.4724386665
 21
176.137135134
 31
0.0
  0
LINE
  5
C0
330
1F
100
AcDbEntity
  8
0
  6
Continuous
 62
     7
370
    25
100
AcDbLine
 10
-423.8471193645
 20
181.9483197787
 30
0.0
 11
-262.4724386665
 21
20.5736465314
 31
0.0
  0
LINE
  5
C1
330
1F
100
AcDbEntity
  8
0
  6
Continuous
 62
     7
370
    25
100
AcDbLine
 10
-262.4724386665
 20
176.137135134
 30
0.0
 11
-346.0653676126
 21
259.7300566295
 31
0.0
  0
LINE
  5
C2
330
1F
100
AcDbEntity
  8
0
  6
Continuous
 62
     7
370
    25
100
AcDbLine
 10
-262.4724386665
 20
-81.6446088693
 30
0.0
 11
-152.4724392626
 21
-81.6446088693
 31
0.0
  0
LINE
  5
C3
330
1F
100
AcDbEntity
  8
0
  6
Continuous
 62
     7
370
    25
100
AcDbLine
 10
-262.4724386665
 20
294.3553782561
 30
0.0
 11
-152.4724392626
 21
294.3553782561
 31
0.0
  0
LWPOLYLINE
  5
C4
330
1F
100
AcDbEntity
  8
0
  6
Continuous
 62
     7
370
    25
100
AcDbPolyline
 90
       34
 70
   128
 43
0.0
 10
-262.4724386665
 20
176.137135134
 10
-262.4101443622
 20
175.9867526153
 10
-262.2233955595
 20
175.5359030822
 10
-261.9126169417
 20
174.7855998138
 10
-261.4785163138
 20
173.737601147
 10
-260.9220734272
 20
172.3942316631
 10
-260.2445511553
 20
170.7585311988
 10
-259.4474843177
 20
168.8342548469
 10
-258.532675955
 20
166.6257090428
 10
-257.5021973285
 20
164.1379154781
 10
-256.3583879206
 20
161.3765067914
 10
-255.1038368079
 20
158.3477563718
 10
-253.7413826618
 20
155.0585038522
 10
-252.2741174731
 20
151.5162147144
 10
-250.7053604755
 20
147.7288908818
 10
-249.038665596
 20
143.7051452258
 10
-247.2778102789
 20
139.4540674546
 10
-245.4267843101
 20
134.9852837184
 10
-243.4897786412
 20
130.3089417079
 10
-241.4711816642
 20
125.4356212476
 10
-239.3755680356
 20
120.3763640979
 10
-237.2076837752
 20
115.1426292518
 10
-234.9724388156
 20
109.7462631324
 10
-232.6748976889
 20
104.1995144942
 10
-230.3202646259
 20
98.5149152139
 10
-227.913874242
 20
92.7053845981
 10
-225.4611766371
 20
86.7840505698
 10
-222.9677299443
 20
80.7643390754
 10
-220.4391807723
 20
74.6598697761
 10
-217.8812576863
 20
68.4845007518
 10
-215.2997553754
 20
62.2522092918
 10
-212.7005211483
 20
55.9770918944
 10
-210.0894442234
 20
49.67339407
 10
-207.4724389646
 20
43.3553911307
  0
LWPOLYLINE
  5
C5
330
1F
100
AcDbEntity
  8
0
  6
Continuous
 62
     7
370
    25
100
AcDbPolyline
 90
       22
 70
   128
 43
0.0
 10
-207.4724389646
 20
43.3553911307
 10
-211.582594126
 20
41.6529111126
 10
-215.669763315
 20
39.9599454859
 10
-219.7110904786
 20
38.2859788397
 10
-223.6839728835
 20
36.6403542021
 10
-227.5661947611
 20
35.0322879413
 10
-231.3360451195
 20
33.4707654575
 10
-234.9724388156
 20
31.9645188311
 10
-238.4550413522
 20
30.5219746688
 10
-241.7643769118
 20
29.1512019494
 10
-244.8819382522
 20
27.8598673204
 10
-247.7902910146
 20
26.6551903942
 10
-250.4731705818
 20
25.5439064959
 10
-252.9155714843
 20
24.5322294095
 10
-255.1038368079
 20
23.6258215764
 10
-257.0257252488
 20
22.8297493914
 10
-258.6704967949
 20
22.148460851
 10
-260.0289425287
 20
21.5857706526
 10
-261.0934740338
 20
21.1448303917
 10
-261.858134571
 20
20.82809876
 10
-262.3186475072
 20
20.6373489955
 10
-262.4724386665
 20
20.5736465314
  0
LWPOLYLINE
  5
C6
330
1F
100
AcDbEntity
  8
0
  6
Continuous
 62
     7
370
    25
100
AcDbPolyline
 90
       42
 70
   128
 43
0.0
 10
-423.8471193645
 20
181.9483197787
 10
-423.817868385
 20
181.977555857
 10
-423.5841436717
 20
182.2112954715
 10
-423.1181098554
 20
182.6773143867
 10
-422.4225683543
 20
183.3728707889
 10
-421.5017063949
 20
184.2937327483
 10
-420.3610523078
 20
185.4343868354
 10
-419.0074606273
 20
186.7879785159
 10
-417.4490971896
 20
188.3463419536
 10
-415.6953050229
 20
190.1001192191
 10
-413.7566490504
 20
192.0387900928
 10
-411.6447819802
 20
194.1506422618
 10
-409.3723996017
 20
196.4230395415
 10
-406.9531811807
 20
198.8422430614
 10
-404.4016702506
 20
201.3937688926
 10
-401.7332150075
 20
204.0622092345
 10
-398.963864002
 20
206.8315602401
 10
-396.110261831
 20
209.685162411
 10
-393.1895895335
 20
212.6058496097
 10
-390.2194006774
 20
215.5760384658
 10
-387.2175468537
 20
218.5778773883
 10
-384.2020882699
 20
221.5933359721
 10
-381.1911745402
 20
224.604264603
 10
-378.2029105756
 20
227.5925136665
 10
-375.2552522752
 20
230.5401719669
 10
-372.365946922
 20
233.42947732
 10
-369.5523543689
 20
236.2430847743
 10
-366.8314023349
 20
238.9640368083
 10
-364.219452295
 20
241.575971947
 10
-361.7322249744
 20
244.0632141688
 10
-359.3846662376
 20
246.4107729056
 10
-357.1908874843
 20
248.6045516589
 10
-355.1641060445
 20
250.6313181976
 10
-353.3164961669
 20
252.4789429763
 10
-351.6591592166
 20
254.1362799266
 10
-350.2020938728
 20
255.5933452705
 10
-348.9540322158
 20
256.8414069274
 10
-347.922484431
 20
257.8729547122
 10
-347.1136792037
 20
258.6817599395
 10
-346.5324594113
 20
259.262994633
 10
-346.1823119256
 20
259.6131123164
 10
-346.0653676126
 20
259.7300566295
  0
LINE
  5
C7
330
1F
100
AcDbEntity
  8
0
  6
Continuous
 62
     7
370
    25
100
AcDbLine
 10
312.3566350282
 20
-220.1790055147
 30
0.0
 11
430.4880294757
 21
-424.7885942336
 31
0.0
  0
LINE
  5
C8
330
1F
100
AcDbEntity
  8
0
  6
Continuous
 62
     7
370
    25
100
AcDbLine
 10
494.7865608726
 20
-316.1569191881
 30
0.0
 11
407.6194286966
 21
-165.1790057849
 31
0.0
  0
LINE
  5
C9
330
1F
100
AcDbEntity
  8
0
  6
Continuous
 62
     7
370
    25
100
AcDbLine
 10
540.4880271717
 20
-512.1189888857
 30
0.0
 11
540.4880271717
 21
-205.0996541292
 31
0.0
  0
LINE
  5
CA
330
1F
100
AcDbEntity
  8
0
  6
Continuous
 62
     7
370
    25
100
AcDbLine
 10
430.4880294757
 20
-423.2051444476
 30
0.0
 11
430.4880294757
 21
-512.1189888857
 31
0.0
  0
ELLIPSE
  5
CB
330
1F
100
AcDbEntity
  8
0
  6
Continuous
 62
     7
370
    25
100
AcDbEllipse
 10
485.4880283237
 20
-410.0513873999
 30
0.0
 11
54.8017118171697
 21
14.68407446257606
 31
0.0
210
0.0
220
0.0
230
1.0
 40
0.3177652438
 41
0.7004580896382456
 42
3.056652579830588
  0
ELLIPSE
  5
CC
330
1F
100
AcDbEntity
  8
0
  6
Continuous
 62
     7
370
    25
100
AcDbEllipse
 10
485.4880283237
 20
-410.0513873999
 30
0.0
 11
-35.45123922521702
 21
132.3058256435084
 31
0.0
210
0.0
220
0.0
230
1.0
 40
0.3178248929
 41
4.797329054143881
 42
5.412847070022955
  0
LWPOLYLINE
  5
CD
330
1F
100
AcDbEntity
  8
0
  6
Continuous
 62
     7
370
    25
100
AcDbPolyline
 90
       82
 70
   128
 43
0.0
 10
387.4880286522
 20
-176.7984467673
 10
384.3915885956
 20
-178.5859990817
 10
381.1483741147
 20
-180.458289079
 10
377.7779077614
 20
-182.404107184
 10
374.3004536089
 20
-184.4117060642
 10
370.7369112255
 20
-186.46903218
 10
367.1087300645
 20
-188.5637021994
 10
363.4377316567
 20
-190.683117824
 10
359.7459719747
 20
-192.8145452531
 10
356.0556782127
 20
-194.9451638412
 10
352.3890341012
 20
-197.062129218
 10
348.7680824418
 20
-199.1527512316
 10
345.2146157894
 20
-201.2044353865
 10
341.7500025962
 20
-203.2048562327
 10
338.3950660395
 20
-205.1419543202
 10
335.1699944598
 20
-207.0041095843
 10
332.0941833099
 20
-208.7801230971
 10
329.1861324222
 20
-210.4592885517
 10
326.4633195679
 20
-212.0315261093
 10
323.9421372368
 20
-213.4873580644
 10
321.6377345868
 20
-214.8180731137
 10
319.5639673945
 20
-216.0156335831
 10
317.7333190294
 20
-217.0728305682
 10
316.1568056242
 20
-217.9833265293
 10
314.8438970487
 20
-218.7416522578
 10
313.8024826663
 20
-219.3432266571
 10
313.0388370891
 20
-219.7844373583
 10
312.557549055
 20
-220.0626209631
 10
312.3615108917
 20
-220.1761421389
 10
312.4519053451
 20
-220.1242673948
 10
312.828184506
 20
-219.9073597716
 10
313.4880908841
 20
-219.5266720059
 10
314.427657407
 20
-218.9845412247
 10
315.6412258605
 20
-218.2841836296
 10
317.121508791
 20
-217.4298412784
 10
318.8595855546
 20
-216.4266505418
 10
320.8450195379
 20
-215.2806352649
 10
323.0658673777
 20
-213.998689295
 10
325.5087639133
 20
-212.5885396089
 10
328.1590216265
 20
-211.0586280726
 10
331.0007001182
 20
-209.4182051803
 10
334.0167160853
 20
-207.677096223
 10
337.1889312364
 20
-205.8457722135
 10
340.4982602932
 20
-203.9352875385
 10
343.9248010528
 20
-201.9570831972
 10
347.4479443648
 20
-199.9230936569
 10
351.046506828
 20
-197.8455364008
 10
354.6988513041
 20
-195.7369031927
 10
358.3829929432
 20
-193.6098867
 10
362.0767980644
 20
-191.4772778317
 10
365.7580381565
 20
-189.3518737342
 10
369.4045755871
 20
-187.2465044063
 10
372.9944887267
 20
-185.1737779507
 10
376.5061746814
 20
-183.1462159373
 10
379.9185178799
 20
-181.1759613863
 10
383.2109954413
 20
-179.2749126111
 10
386.363803615
 20
-177.4544677007
 10
389.3579921244
 20
-175.7255807934
 10
392.1755379233
 20
-174.0986464847
 10
394.7995058812
 20
-172.5834678814
 10
397.2141199058
 20
-171.1891546968
 10
399.4048551395
 20
-169.9240700144
 10
401.3585275212
 20
-168.7958272392
 10
403.0633886169
 20
-167.8112475024
 10
404.5091941082
 20
-166.9762106038
 10
405.6872380367
 20
-166.2957569085
 10
406.5904476345
 20
-165.773959575
 10
407.2133833238
 20
-165.4139853856
 10
407.5523019378
 20
-165.2179973958
 10
407.6051593542
 20
-165.1871412362
 10
407.3716421058
 20
-165.3216363531
 10
406.8531621121
 20
-165.6206573678
 10
406.0528198007
 20
-166.082428363
 10
404.9754409856
 20
-166.7041285689
 10
403.6275096962
 20
-167.4820528103
 10
402.0171128589
 20
-168.4115217634
 10
400.1539574198
 20
-169.4869328862
 10
398.049243904
 20
-170.7018212499
 10
395.7156130731
 20
-172.0488903246
 10
393.167115633
 20
-173.5200172858
 10
390.4190844752
 20
-175.1063997758
 10
387.4880286522
 20
-176.7984467673
  0
LWPOLYLINE
  5
CE
330
1F
100
AcDbEntity
  8
0
  6
Continuous
 62
     7
370
    25
100
AcDbPolyline
 90
       74
 70
   128
 43
0.0
 10
382.4880321095
 20
-179.685809495
 10
379.6693562482
 20
-181.3130242327
 10
376.7049685242
 20
-183.0243756167
 10
373.6168146039
 20
-184.8072065047
 10
370.427753555
 20
-186.6483200644
 10
367.1614096739
 20
-188.5340653115
 10
363.8419475927
 20
-190.4505156233
 10
360.4939520952
 20
-192.3834651108
 10
357.1422213332
 20
-194.3186088434
 10
353.8115534587
 20
-196.241593035
 10
350.5266149149
 20
-198.1382127559
 10
347.3117244333
 20
-199.99441497
 10
344.1906844466
 20
-201.7964567138
 10
341.1866045987
 20
-203.5309948234
 10
338.3217173522
 20
-205.1851924066
 10
335.6172515479
 20
-206.7467918425
 10
333.0932084994
 20
-208.2042440717
 10
330.768290871
 20
-209.5467496581
 10
328.6597024792
 20
-210.7643743919
 10
326.7830587316
 20
-211.8481010051
 10
325.1522575512
 20
-212.7899037081
 10
323.7793608395
 20
-213.5828166402
 10
322.6745417919
 20
-214.2209764682
 10
321.8459795312
 20
-214.6996345636
 10
321.299809058
 20
-215.0152467549
 10
321.0400712015
 20
-215.1655022354
 10
321.06869418
 20
-215.1492612241
 10
321.3854593567
 20
-214.9666964239
 10
321.9880288986
 20
-214.6190823918
 10
322.8719273372
 20
-214.1090495521
 10
324.0306258623
 20
-213.4403408594
 10
325.4555475902
 20
-212.6179426209
 10
327.1361241986
 20
-211.6479301395
 10
329.0599296112
 20
-210.5374635438
 10
331.2127181933
 20
-209.2947779236
 10
333.5785482286
 20
-207.9290633822
 10
336.1399035856
 20
-206.4504678085
 10
338.8778218046
 20
-204.869901264
 10
341.7720318978
 20
-203.1990659408
 10
344.8011058147
 20
-201.4503687228
 10
347.9426173159
 20
-199.6367199608
 10
351.1733122072
 20
-197.771556869
 10
354.4692721519
 20
-195.8686759496
 10
357.8060802953
 20
-193.9421860451
 10
361.159049121
 20
-192.0063646152
 10
364.5033541352
 20
-190.0755075575
 10
367.8142169421
 20
-188.1639451824
 10
371.0671423203
 20
-186.2857714894
 10
374.2380446629
 20
-184.4549658483
 10
377.3034402729
 20
-182.6850386224
 10
380.2406436089
 20
-180.9891125402
 10
383.0279016288
 20
-179.3797234512
 10
385.6445860844
 20
-177.8687823009
 10
388.0713120596
 20
-176.4675066844
 10
390.2901197286
 20
-175.1862550608
 10
392.2845797229
 20
-174.0345145761
 10
394.039930109
 20
-173.0208098025
 10
395.5431685839
 20
-172.1526494947
 10
396.7831762823
 20
-171.436455095
 10
397.7507546545
 20
-170.8775394309
 10
398.4387624437
 20
-170.4800276091
 10
398.8420867105
 20
-170.2468737386
 10
398.9577561021
 20
-170.1797955096
 10
398.7848987055
 20
-170.2792985172
 10
398.3248105362
 20
-170.5446366993
 10
397.5808844157
 20
-170.9738655527
 10
396.5586310443
 20
-171.5637691131
 10
395.2656315865
 20
-172.3100089852
 10
393.7114481084
 20
-173.2070543679
 10
391.9075787972
 20
-174.2482808943
 10
389.8673986918
 20
-175.4259439965
 10
387.6059973519
 20
-176.7313456253
 10
385.1401225521
 20
-178.1548180698
 10
382.4880321095
 20
-179.685809495
  0
LWPOLYLINE
  5
CF
330
1F
100
AcDbEntity
  8
0
  6
Continuous
 62
     7
370
    25
100
AcDbPolyline
 90
       82
 70
   128
 43
0.0
 10
446.5971555692
 20
-534.5702118391
 10
443.7003545973
 20
-532.7629001386
 10
441.0548693561
 20
-530.8314337736
 10
438.6766109396
 20
-528.7874280673
 10
436.5798822759
 20
-526.6431758057
 10
434.7772931752
 20
-524.4115738638
 10
433.2796826217
 20
-522.1060448918
 10
432.0960621382
 20
-519.7404498749
 10
431.2335440056
 20
-517.3290193238
 10
430.6973201887
 20
-514.8862559503
 10
430.4906136044
 20
-512.4268487494
 10
430.6146675846
 20
-509.9655908827
 10
431.068736657
 20
-507.5172831149
 10
431.8500931303
 20
-505.0966509376
 10
432.9540297283
 20
-502.7182518069
 10
434.3739135907
 20
-500.3963892258
 10
436.1012047123
 20
-498.1450291068
 10
438.125513895
 20
-495.9777085308
 10
440.4346646509
 20
-493.9074635152
 10
443.0147738738
 20
-491.9467459467
 10
445.8503222216
 20
-490.1073464544
 10
448.9242552848
 20
-488.4003268821
 10
452.218087143
 20
-486.8359544243
 10
455.7120108351
 20
-485.423637852
 10
459.3850085841
 20
-484.1718699653
 10
463.2149941241
 20
-483.0881788836
 10
467.1789302513
 20
-482.179081475
 10
471.2529802885
 20
-481.4500476205
 10
475.4126411118
 20
-480.905459916
 10
479.6328985665
 20
-480.548593903
 10
483.8883683961
 20
-480.3815975401
 10
488.1534582438
 20
-480.4054706736
 10
492.4025191182
 20
-480.6200749217
 10
496.609994224
 20
-481.0241177075
 10
500.7505809642
 20
-481.6151667056
 10
504.7993771366
 20
-482.3896703712
 10
508.7320323996
 20
-483.3429693449
 10
512.5248971028
 20
-484.4693306684
 10
516.1551546547
 20
-485.7619816194
 10
519.6009815487
 20
-487.2131443069
 10
522.841645816
 20
-488.8140955482
 10
525.8576617831
 20
-490.5552045054
 10
528.6308911586
 20
-492.4260001659
 10
531.1446510345
 20
-494.4152336898
 10
533.3838307778
 20
-496.5109367662
 10
535.3349572265
 20
-498.700510953
 10
536.98629841
 20
-500.9707845122
 10
538.3279234772
 20
-503.3081047913
 10
539.3517613067
 20
-505.6984146372
 10
540.0516597756
 20
-508.1273383147
 10
540.4234055162
 20
-510.5802689454
 10
540.4647594771
 20
-513.0424529054
 10
540.1754819482
 20
-515.4990833471
 10
539.5573049014
 20
-517.9353861176
 10
538.6139491134
 20
-520.3367071973
 10
537.3510886035
 20
-522.6886062222
 10
535.7763150728
 20
-524.9769378399
 10
533.8991036597
 20
-527.1879414296
 10
531.7307431343
 20
-529.3083178966
 10
529.2842739947
 20
-531.3253171111
 10
526.5744077961
 20
-533.2268057685
 10
523.6174427742
 20
-535.0013495537
 10
520.4311641582
 20
-536.6382767719
 10
517.0347336998
 20
-538.1277421221
 10
513.448575581
 20
-539.4607864788
 10
509.6942594391
 20
-540.6293952954
 10
505.7943667653
 20
-541.6265392352
 10
501.7723470126
 20
-542.4462207415
 10
497.6523924719
 20
-543.0835097744
 10
493.4592802218
 20
-543.5345772652
 10
489.2182272486
 20
-543.7967057612
 10
484.9547416153
 20
-543.8683205996
 10
480.6944617767
 20
-543.7489914284
 10
476.4630130166
 20
-543.439436008
 10
472.2858401777
 20
-542.9415148886
 10
468.1880654161
 20
-542.2582253278
 10
464.1943393696
 20
-541.3936731577
 10
460.328672571
 20
-540.3530606199
 10
456.6143162513
 20
-539.1426449268
 10
453.0736108744
 20
-537.7697055668
 10
449.7278504769
 20
-536.2424994446
 10
446.5971555692
 20
-534.5702118391
  0
LWPOLYLINE
  5
D0
330
1F
100
AcDbEntity
  8
0
  6
Continuous
 62
     7
370
    25
100
AcDbPolyline
 90
       42
 70
   128
 43
0.0
 10
430.4905951651
 20
-204.793045784
 10
430.6146675846
 20
-202.9462561263
 10
431.068736657
 20
-200.4979483585
 10
431.8500931303
 20
-198.0773161812
 10
432.9540297283
 20
-195.6989170505
 10
434.3739135907
 20
-193.3770544694
 10
436.1012047123
 20
-191.1256943504
 10
438.125513895
 20
-188.9583737744
 10
440.4346646509
 20
-186.8881287588
 10
443.0147738738
 20
-184.9274111903
 10
445.8503222216
 20
-183.088011698
 10
448.9242552848
 20
-181.3809921257
 10
452.218087143
 20
-179.8166196679
 10
455.7120108351
 20
-178.4043030956
 10
459.3850085841
 20
-177.1525352089
 10
463.2149941241
 20
-176.0688441272
 10
467.1789302513
 20
-175.1597467186
 10
471.2529802885
 20
-174.4307128641
 10
475.4126411118
 20
-173.8861251596
 10
479.6328985665
 20
-173.5292591466
 10
483.8883683961
 20
-173.3622627837
 10
488.1534582438
 20
-173.3861359172
 10
492.4025191182
 20
-173.6007401653
 10
496.609994224
 20
-174.0047829511
 10
500.7505809642
 20
-174.5958319492
 10
504.7993771366
 20
-175.3703356148
 10
508.7320323996
 20
-176.3236345885
 10
512.5248971028
 20
-177.449995912
 10
516.1551546547
 20
-178.742646863
 10
519.6009815487
 20
-180.1938095505
 10
522.841645816
 20
-181.7947607917
 10
525.8576617831
 20
-183.535869749
 10
528.6308911586
 20
-185.4066654095
 10
531.1446510345
 20
-187.3958989334
 10
533.3838307778
 20
-189.4916020098
 10
535.3349572265
 20
-191.6811761966
 10
536.98629841
 20
-193.9514497558
 10
538.3279234772
 20
-196.2887700349
 10
539.3517613067
 20
-198.6790798808
 10
540.0516597756
 20
-201.1080035583
 10
540.4234055162
 20
-203.5609341889
 10
540.4880271717
 20
-205.0996541292
  0
LWPOLYLINE
  5
D1
330
1F
100
AcDbEntity
  8
0
  6
Continuous
 62
     7
370
    25
100
AcDbPolyline
 90
       74
 70
   128
 43
0.0
 10
453.6682219059
 20
-530.4881721316
 10
451.050631293
 20
-528.8410688648
 10
448.6880031011
 20
-527.0701612597
 10
446.5978259675
 20
-525.1885623182
 10
444.7955832612
 20
-523.2101982249
 10
443.2946101794
 20
-521.1497197676
 10
442.1060216362
 20
-519.0223816339
 10
441.2386184204
 20
-516.8439334922
 10
440.6988252923
 20
-514.6305021391
 10
440.4906330315
 20
-512.3984759279
 10
440.6155879006
 20
-510.1643831145
 10
441.0727587177
 20
-507.9447587978
 10
441.8587684665
 20
-505.7560415134
 10
442.9677916622
 20
-503.614431811
 10
444.3916215233
 20
-501.5357865667
 10
446.1197140936
 20
-499.5354961887
 10
448.1392764875
 20
-497.6283698054
 10
450.4353551348
 20
-495.8285265377
 10
452.9909516848
 20
-494.1492920922
 10
455.7871441781
 20
-492.6030983967
 10
458.8032345607
 20
-491.2013954008
 10
462.0168863201
 20
-489.9545564137
 10
465.4043134871
 20
-488.8718176569
 10
468.940431443
 20
-487.961191206
 10
472.5990637021
 20
-487.2294216507
 10
476.3531177433
 20
-486.6819241276
 10
480.1748082567
 20
-486.3227558072
 10
484.0358323165
 20
-486.1545725547
 10
487.907609091
 20
-486.1786198059
 10
491.7614721378
 20
-486.3947219224
 10
495.5688893575
 20
-486.8012768693
 10
499.3016697769
 20
-487.3952767442
 10
502.9321808684
 20
-488.1723207034
 10
506.4335401866
 20
-489.1266586808
 10
509.7798274197
 20
-490.2512225622
 10
512.9462658184
 20
-491.537688343
 10
515.9094123507
 20
-492.9765311577
 10
518.6473305697
 20
-494.5570977022
 10
521.1397494877
 20
-496.2676857844
 10
523.3682150411
 20
-498.0956317631
 10
525.3162278913
 20
-500.0274022638
 10
526.969368877
 20
-502.0486939738
 10
528.3153943386
 20
-504.1445434155
 10
529.3443437906
 20
-506.2994316836
 10
530.0485939216
 20
-508.4974068593
 10
530.4229343275
 20
-510.7221946403
 10
530.4645899018
 20
-512.9573237962
 10
530.1732563969
 20
-515.1862455419
 10
529.5510912047
 20
-517.3924605147
 10
528.6026949169
 20
-519.5596297832
 10
527.3350955207
 20
-521.6717132294
 10
525.7576733241
 20
-523.7130706738
 10
523.882111565
 20
-525.668590753
 10
521.7222890691
 20
-527.5237924246
 10
519.2942051751
 20
-529.264944341
 10
516.6158289285
 20
-530.879151908
 10
513.7069943728
 20
-532.3544663933
 10
510.589236572
 20
-533.6799643824
 10
507.285638828
 20
-534.8458329362
 10
503.8206588255
 20
-535.8434395424
 10
500.2199495072
 20
-536.6653990253
 10
496.5101707304
 20
-537.3056244886
 10
492.7187903865
 20
-537.7593782582
 10
488.8738716912
 20
-538.0232973532
 10
485.003890109
 20
-538.0954322637
 10
481.1374883748
 20
-537.9752454298
 10
477.3032973695
 20
-537.6636294899
 10
473.5297056299
 20
-537.162888272
 10
469.8446486139
 20
-536.4767307113
 10
466.2754085034
 20
-535.6102373949
 10
462.8484100554
 20
-534.5698248264
 10
459.5890319288
 20
-533.3631912511
 10
456.5213975969
 20
-531.9992750277
 10
453.6682219059
 20
-530.4881721316
  0
ENDSEC
  0
SECTION
  2
OBJECTS
  0
DICTIONARY
  5
C
330
0
100
AcDbDictionary
281
     1
  3
ACAD_GROUP
350
D
  3
ACAD_LAYOUT
350
1A
  3
ACAD_MLINESTYLE
350
17
  3
ACAD_PLOTSETTINGS
350
19
  3
ACAD_PLOTSTYLENAME
350
E
  3
ACAD_SCALELIST
350
47
  0
DICTIONARY
  5
D
102
{ACAD_REACTORS
330
C
102
}
330
C
100
AcDbDictionary
281
     1
  0
DICTIONARY
  5
1A
102
{ACAD_REACTORS
330
C
102
}
330
C
100
AcDbDictionary
281
     1
  3
Layout1
350
1E
  3
Layout2
350
26
  3
Model
350
22
  0
DICTIONARY
  5
17
102
{ACAD_REACTORS
330
C
102
}
330
C
100
AcDbDictionary
281
     1
  3
Standard
350
18
  0
DICTIONARY
  5
19
102
{ACAD_REACTORS
330
C
102
}
330
C
100
AcDbDictionary
281
     1
  0
ACDBDICTIONARYWDFLT
  5
E
102
{ACAD_REACTORS
330
C
102
}
330
C
100
AcDbDictionary
281
     1
  3
Normal
350
F
100
AcDbDictionaryWithDefault
340
F
  0
DICTIONARY
  5
47
102
{ACAD_REACTORS
330
C
102
}
330
C
100
AcDbDictionary
281
     1
  3
A0
350
48
  3
A1
350
49
  3
A2
350
4A
  3
A3
350
4B
  3
A4
350
4C
  3
A5
350
4D
  3
A6
350
4E
  3
A7
350
4F
  3
A8
350
50
  3
A9
350
51
  3
B0
350
52
  3
B1
350
53
  3
B2
350
54
  3
B3
350
55
  3
B4
350
56
  3
B5
350
57
  3
B6
350
58
  3
B7
350
59
  3
B8
350
5A
  3
B9
350
5B
  3
C0
350
5C
  3
C1
350
5D
  3
C2
350
5E
  3
C3
350
5F
  3
C4
350
60
  3
C5
350
61
  3
C6
350
62
  3
C7
350
63
  3
C8
350
64
  3
C9
350
65
  3
D0
350
66
  3
D1
350
67
  3
D2
350
68
  0
LAYOUT
  5
1E
102
{ACAD_REACTORS
330
1A
102
}
330
1A
100
AcDbPlotSettings
  1

  2
none_device
  4

  6

 40
0.0
 41
0.0
 42
0.0
 43
0.0
 44
0.0
 45
0.0
 46
0.0
 47
0.0
 48
0.0
 49
0.0
140
0.0
141
0.0
142
1.0
143
1.0
 70
   688
 72
     1
 73
     0
 74
     5
  7

 75
    16
147
1.0
148
0.0
149
0.0
100
AcDbLayout
  1
Layout1
 70
     1
 71
     1
 10
0.0
 20
0.0
 11
420.0
 21
297.0
 12
0.0
 22
0.0
 32
0.0
 14
1.0000000000E+20
 24
1.0000000000E+20
 34
1.0000000000E+20
 15
-1.0000000000E+20
 25
-1.0000000000E+20
 35
-1.0000000000E+20
146
0.0
 13
0.0
 23
0.0
 33
0.0
 16
1.0
 26
0.0
 36
0.0
 17
0.0
 27
1.0
 37
0.0
 76
     0
330
1B
  0
LAYOUT
  5
26
102
{ACAD_REACTORS
330
1A
102
}
330
1A
100
AcDbPlotSettings
  1

  2
none_device
  4

  6

 40
0.0
 41
0.0
 42
0.0
 43
0.0
 44
0.0
 45
0.0
 46
0.0
 47
0.0
 48
0.0
 49
0.0
140
0.0
141
0.0
142
1.0
143
1.0
 70
   688
 72
     1
 73
     0
 74
     5
  7

 75
    16
147
1.0
148
0.0
149
0.0
100
AcDbLayout
  1
Layout2
 70
     1
 71
     2
 10
0.0
 20
0.0
 11
0.0
 21
0.0
 12
0.0
 22
0.0
 32
0.0
 14
0.0
 24
0.0
 34
0.0
 15
0.0
 25
0.0
 35
0.0
146
0.0
 13
0.0
 23
0.0
 33
0.0
 16
1.0
 26
0.0
 36
0.0
 17
0.0
 27
1.0
 37
0.0
 76
     0
330
23
  0
LAYOUT
  5
22
102
{ACAD_REACTORS
330
1A
102
}
330
1A
100
AcDbPlotSettings
  1

  2
none_device
  4
Letter_(8.50_x_11.00_Inches)
  6

 40
6.35
 41
6.35
 42
6.35000508
 43
6.35000508
 44
215.9
 45
279.4
 46
0.0
 47
0.0
 48
0.0
 49
0.0
140
0.0
141
0.0
142
1.0
143
1.0
 70
  1712
 72
     1
 73
     0
 74
     0
  7

 75
     0
147
1.0
148
0.0
149
0.0
100
AcDbLayout
  1
Model
 70
     1
 71
     0
 10
0.0
 20
0.0
 11
279.4
 21
215.9
 12
0.0
 22
0.0
 32
0.0
 14
0.0
 24
0.0
 34
0.0
 15
279.4
 25
215.9
 35
0.0
146
0.0
 13
0.0
 23
0.0
 33
0.0
 16
1.0
 26
0.0
 36
0.0
 17
0.0
 27
1.0
 37
0.0
 76
     0
330
1F
331
29
  0
MLINESTYLE
  5
18
102
{ACAD_REACTORS
330
17
102
}
330
17
100
AcDbMlineStyle
  2
Standard
 70
     0
  3

 62
   256
 51
90.0
 52
90.0
 71
     2
 49
0.5
 62
   256
  6
BYLAYER
 49
-0.5
 62
   256
  6
BYLAYER
  0
ACDBPLACEHOLDER
  5
F
102
{ACAD_REACTORS
330
E
102
}
330
E
  0
SCALE
  5
48
102
{ACAD_REACTORS
330
47
102
}
330
47
100
AcDbScale
 70
     0
300
1:1
140
1.0
141
1.0
290
     1
  0
SCALE
  5
49
102
{ACAD_REACTORS
330
47
102
}
330
47
100
AcDbScale
 70
     0
300
1:2
140
1.0
141
2.0
290
     0
  0
SCALE
  5
4A
102
{ACAD_REACTORS
330
47
102
}
330
47
100
AcDbScale
 70
     0
300
1:4
140
1.0
141
4.0
290
     0
  0
SCALE
  5
4B
102
{ACAD_REACTORS
330
47
102
}
330
47
100
AcDbScale
 70
     0
300
1:5
140
1.0
141
5.0
290
     0
  0
SCALE
  5
4C
102
{ACAD_REACTORS
330
47
102
}
330
47
100
AcDbScale
 70
     0
300
1:8
140
1.0
141
8.0
290
     0
  0
SCALE
  5
4D
102
{ACAD_REACTORS
330
47
102
}
330
47
100
AcDbScale
 70
     0
300
1:10
140
1.0
141
10.0
290
     0
  0
SCALE
  5
4E
102
{ACAD_REACTORS
330
47
102
}
330
47
100
AcDbScale
 70
     0
300
1:16
140
1.0
141
16.0
290
     0
  0
SCALE
  5
4F
102
{ACAD_REACTORS
330
47
102
}
330
47
100
AcDbScale
 70
     0
300
1:20
140
1.0
141
20.0
290
     0
  0
SCALE
  5
50
102
{ACAD_REACTORS
330
47
102
}
330
47
100
AcDbScale
 70
     0
300
1:30
140
1.0
141
30.0
290
     0
  0
SCALE
  5
51
102
{ACAD_REACTORS
330
47
102
}
330
47
100
AcDbScale
 70
     0
300
1:40
140
1.0
141
40.0
290
     0
  0
SCALE
  5
52
102
{ACAD_REACTORS
330
47
102
}
330
47
100
AcDbScale
 70
     0
300
1:50
140
1.0
141
50.0
290
     0
  0
SCALE
  5
53
102
{ACAD_REACTORS
330
47
102
}
330
47
100
AcDbScale
 70
     0
300
1:100
140
1.0
141
100.0
290
     0
  0
SCALE
  5
54
102
{ACAD_REACTORS
330
47
102
}
330
47
100
AcDbScale
 70
     0
300
2:1
140
2.0
141
1.0
290
     0
  0
SCALE
  5
55
102
{ACAD_REACTORS
330
47
102
}
330
47
100
AcDbScale
 70
     0
300
4:1
140
4.0
141
1.0
290
     0
  0
SCALE
  5
56
102
{ACAD_REACTORS
330
47
102
}
330
47
100
AcDbScale
 70
     0
300
8:1
140
8.0
141
1.0
290
     0
  0
SCALE
  5
57
102
{ACAD_REACTORS
330
47
102
}
330
47
100
AcDbScale
 70
     0
300
10:1
140
10.0
141
1.0
290
     0
  0
SCALE
  5
58
102
{ACAD_REACTORS
330
47
102
}
330
47
100
AcDbScale
 70
     0
300
100:1
140
100.0
141
1.0
290
     0
  0
SCALE
  5
59
102
{ACAD_REACTORS
330
47
102
}
330
47
100
AcDbScale
 70
     0
300
1/128" = 1'-0"
140
0.0078125
141
12.0
290
     0
  0
SCALE
  5
5A
102
{ACAD_REACTORS
330
47
102
}
330
47
100
AcDbScale
 70
     0
300
1/64" = 1'-0"
140
0.015625
141
12.0
290
     0
  0
SCALE
  5
5B
102
{ACAD_REACTORS
330
47
102
}
330
47
100
AcDbScale
 70
     0
300
1/32" = 1'-0"
140
0.03125
141
12.0
290
     0
  0
SCALE
  5
5C
102
{ACAD_REACTORS
330
47
102
}
330
47
100
AcDbScale
 70
     0
300
1/16" = 1'-0"
140
0.0625
141
12.0
290
     0
  0
SCALE
  5
5D
102
{ACAD_REACTORS
330
47
102
}
330
47
100
AcDbScale
 70
     0
300
3/32" = 1'-0"
140
0.09375
141
12.0
290
     0
  0
SCALE
  5
5E
102
{ACAD_REACTORS
330
47
102
}
330
47
100
AcDbScale
 70
     0
300
1/8" = 1'-0"
140
0.125
141
12.0
290
     0
  0
SCALE
  5
5F
102
{ACAD_REACTORS
330
47
102
}
330
47
100
AcDbScale
 70
     0
300
3/16" = 1'-0"
140
0.1875
141
12.0
290
     0
  0
SCALE
  5
60
102
{ACAD_REACTORS
330
47
102
}
330
47
100
AcDbScale
 70
     0
300
1/4" = 1'-0"
140
0.25
141
12.0
290
     0
  0
SCALE
  5
61
102
{ACAD_REACTORS
330
47
102
}
330
47
100
AcDbScale
 70
     0
300
3/8" = 1'-0"
140
0.375
141
12.0
290
     0
  0
SCALE
  5
62
102
{ACAD_REACTORS
330
47
102
}
330
47
100
AcDbScale
 70
     0
300
1/2" = 1'-0"
140
0.5
141
12.0
290
     0
  0
SCALE
  5
63
102
{ACAD_REACTORS
330
47
102
}
330
47
100
AcDbScale
 70
     0
300
3/4" = 1'-0"
140
0.75
141
12.0
290
     0
  0
SCALE
  5
64
102
{ACAD_REACTORS
330
47
102
}
330
47
100
AcDbScale
 70
     0
300
1" = 1'-0"
140
1.0
141
12.0
290
     0
  0
SCALE
  5
65
102
{ACAD_REACTORS
330
47
102
}
330
47
100
AcDbScale
 70
     0
300
1-1/2" = 1'-0"
140
1.5
141
12.0
290
     0
  0
SCALE
  5
66
102
{ACAD_REACTORS
330
47
102
}
330
47
100
AcDbScale
 70
     0
300
3" = 1'-0"
140
3.0
141
12.0
290
     0
  0
SCALE
  5
67
102
{ACAD_REACTORS
330
47
102
}
330
47
100
AcDbScale
 70
     0
300
6" = 1'-0"
140
6.0
141
12.0
290
     0
  0
SCALE
  5
68
102
{ACAD_REACTORS
330
47
102
}
330
47
100
AcDbScale
 70
     0
300
1'-0" = 1'-0"
140
12.0
141
12.0
290
     0
  0
ENDSEC
  0
EOF
